Wku

Hur man spelar akustisk gitarr tab

Denna sida förklarar hur man spelar akustisk gitarr tab snabbt och enkelt! De två viktigaste sakerna du måste veta är att de linjer på halsen av gitarren kallas band (eller kolumner) och att varje sträng är ett brev, enligt följande:

 E --------------------------------------------- (hög sträng)
 B ---------------------------------------------
 G ---------------------------------------------
 D ---------------------------------------------
 A ---------------------------------------------
 E --------------------------------------------- (bassträng)



(E) aster
(G) ets
(A) t

Anledningen till att den visar strängarna på motsatt sätt är därför att det är hur du ser dem när du spelar din gitarr.

Nu när du har lärt dig grunderna, här är stegen för att spela flikar!

Steg

Hur man spelar akustisk gitarr tab. Veta när man ska trycka på en sträng.
Hur man spelar akustisk gitarr tab. Veta när man ska trycka på en sträng.
  1. 1
    Veta när man ska trycka på en sträng. När du ser ett annat nummer än noll, tryck ner i mellan utrymmet innan bandet av den strängen och spela den strängen. Om du ser "0", betyder det att det är en öppen sträng och du inte ha något band nere.
  2. 2
    Håll ett slag när du spelar en låt, eller plockning anteckningar. Till skillnad från musik, visar flikar inte hur lång tid att spela eller hålla en anteckning. Tidpunkten är upp till dig, så lyssna på själva låten så att du vet hur det spelas.
  3. 3
    Inse ackord. Om det inte finns några siffror staplade ovanpå varandra, är att ett ackord, eller bara kopplade anteckningar som ska spelas tillsammans. Fret alla dessa siffror på en gång och knäpper på strängarna som ackord är en del av.
  4. 4
    Lär dig avancerade tekniker. När du spelar svårare saker, såsom snabba rytmiska mönster till "solon" eller bara gå upp och ned en skala, kanske du vill hänvisa till hammer-ons och pull-offs. Hammer-on är när du plockar en öppen sträng, eller gräma redan nedtryckt fret, och knäpper det. Sedan, snabbt, placera en annan fingret på ett band precis framför den du håller, eller var du kan bekvämt nå, utan knäppa, eller plockning, strängen. Att göra det bakåt ger dig vad som kallas en pull off. Försöker göra detta upp och ner ett snöre ett par gånger, se vad som låter bra, och vänja sig vid att göra detta, det är en ganska nödvändig färdighet om du tänker även spela en enkel låt som "Yankee Doodle".

Tips

  • En annan - Den ständigt populära Smoke on the Water
 E -------------------------------------
 B-0-3-5-0-3-6,5-0-3-5-3-0 --------------
 G -------------------------------------
 D -------------------------------------
 En -------------------------------------
 E -------------------------------------

  • Här är en enkel nybörjare fliken för "Mary Had a Little Lamb": (vänsterhänt)
 
 E ----------------------------------------
 B ----------------------------------------
 G-4-2-0-2-4-4-4 - den 2 2-2 --- 4 - 6 --- 7 ----------
 D ----------------------------------------
 En ----------------------------------------
 E ----------------------------------------

 E ----------------------------------------
 B ----------------------------------------
 G-4-4-4-2-0-2-4-4-4-2-2-4-2-0 ------------
 D ----------------------------------------
 En ----------------------------------------
 E ----------------------------------------
 (Högerhänt)
 E ----------------------------------------
 En ----------------------------------------
 D ----------------------------------------
 G-4-2-0-2-4-4-4 - den 2 2-2 --- 4 ---------------
 B ----------------------------------------
 E ----------------------------------------

 E ----------------------------------------
 En ----------------------------------------
 D ----------------------------------------
 G-4-4-4-2-0-2-4-4-4-2-2-4-2-0 ------------
 B ----------------------------------------
 E ----------------------------------------

  • Venture vidare till andra strängar
 E-2-0-0-5-0-0-2-0-0-5-0-0 ----------------
 B ------------------------- 2-2-0 ----------
 G ------------------------------- 2 --------
 D ----------------------------------------
 En ----------------------------------------
 E ----------------------------------------

  • Om du fastnar eller gör ett misstag, bara fortsätta och aldrig sluta!
  • Här är en annan enskild sträng rytm träning:
 SW-12-0-0-7-0-0-8-0-0-5-0-0 ---------------
 B ----------------------------------------
 G ----------------------------------------
 D ----------------------------------------
 En ----------------------------------------
 E ----------------------------------------

  • En annan:
 E-12-0-0-0-7-0-0-8-0-0-5-0-0-3-0-0-5-0-0-

  • En mer avancerad flik, med hammare-on och pull-off tekniker som nämns ovan. De första tonerna i Sweet Home Alabama...
E | ------------------------------------------------ - | |
B | ------- 3 --------- 3 ---------- 3 ------------------- - | |
G | --------- 2 --------- 0 -------- 0 --------------- 2P0 - | |
D |-0-0 ------------------------ 0 - 0 ---- 0h2p0 -------- | |
A | ------------ 3-3 ------------- 2 --- 0p2 ------- 0 ------ | |
E | ----------------------- 3-3 - 3 ------------------- - | |

Varningar

  • Öva varje dag.
  • Du kommer inte att kunna spela alla flikar om detta är första gången du spelar en gitarr. Precis som med allt annat, måste du träna för att bli bättre.
  • Gitarrtablatur inkluderar inte taktarter för att ange tempo. Det är oftast bäst att börja med låtar du känner väl eller ladda ner ett gratis program gitarrtablatur så att du kan höra musik som du spelar tillsammans med det